ISO-10303-21;
HEADER;
FILE_DESCRIPTION (( 'STEP AP203' ),
    '1' );
FILE_NAME ('Q-ZDWWP-R42-12.7-1064-SHM.STEP',
    '2020-12-22T09:02:40',
    ( '' ),
    ( '' ),
    'SwSTEP 2.0',
    'SolidWorks 2020',
    '' );
FILE_SCHEMA (( 'CONFIG_CONTROL_DESIGN' ));
ENDSEC;

DATA;
#1 = PERSON_AND_ORGANIZATION ( #15, #305 ) ;
#2 = CIRCLE ( 'NONE', #186, 6.349999999999999645 ) ;
#3 = PRODUCT_DEFINITION ( 'UNKNOWN', '', #114, #167 ) ;
#4 = DIRECTION ( 'NONE',  ( 0.000000000000000000, 0.000000000000000000, 1.000000000000000000 ) ) ;
#5 = CARTESIAN_POINT ( 'NONE',  ( 1.500000000000000888, 0.000000000000000000, 0.000000000000000000 ) ) ;
#6 = DIRECTION ( 'NONE',  ( -1.000000000000000000, -0.000000000000000000, -0.000000000000000000 ) ) ;
#7 = AXIS2_PLACEMENT_3D ( 'NONE', #11, #63, #21 ) ;
#8 = CARTESIAN_POINT ( 'NONE',  ( -1.614212418857619014, 0.000000000000000000, 6.349999999999999645 ) ) ;
#9 = EDGE_LOOP ( 'NONE', ( #71, #116 ) ) ;
#10 = APPLICATION_CONTEXT ( 'configuration controlled 3d designs of mechanical parts and assemblies' ) ;
#11 = CARTESIAN_POINT ( 'NONE',  ( -1.614212418857619014, 0.000000000000000000, 0.000000000000000000 ) ) ;
#12 = EDGE_LOOP ( 'NONE', ( #270, #92 ) ) ;
#13 = DIRECTION ( 'NONE',  ( 0.000000000000000000, 0.000000000000000000, -1.000000000000000000 ) ) ;
#14 = EDGE_LOOP ( 'NONE', ( #25, #52 ) ) ;
#15 = PERSON ( 'UNSPECIFIED', 'UNSPECIFIED', 'UNSPECIFIED', ('UNSPECIFIED'), ('UNSPECIFIED'), ('UNSPECIFIED') ) ;
#16 = VECTOR ( 'NONE', #83, 1000.000000000000000 ) ;
#17 = VERTEX_POINT ( 'NONE', #162 ) ;
#18 = PERSON_AND_ORGANIZATION_ROLE ( 'creator' ) ;
#19 = VERTEX_POINT ( 'NONE', #85 ) ;
#20 = APPROVAL_STATUS ( 'not_yet_approved' ) ;
#21 = DIRECTION ( 'NONE',  ( 0.000000000000000000, 0.000000000000000000, 1.000000000000000000 ) ) ;
#22 = APPROVAL_PERSON_ORGANIZATION ( #281, #70, #225 ) ;
#23 = ORIENTED_EDGE ( 'NONE', *, *, #224, .T. ) ;
#24 = CARTESIAN_POINT ( 'NONE',  ( 3.000000000000000000, 0.000000000000000000, 12.69999999999999929 ) ) ;
#25 = ORIENTED_EDGE ( 'NONE', *, *, #240, .F. ) ;
#26 = CARTESIAN_POINT ( 'NONE',  ( 3.000000000000000000, 1.555301434917138433E-15, -12.69999999999999929 ) ) ;
#27 = AXIS2_PLACEMENT_3D ( 'NONE', #41, #234, #263 ) ;
#28 = FACE_OUTER_BOUND ( 'NONE', #117, .T. ) ;
#29 = CYLINDRICAL_SURFACE ( 'NONE', #313, 12.69999999999999929 ) ;
#30 = DIRECTION ( 'NONE',  ( 0.000000000000000000, 0.000000000000000000, 1.000000000000000000 ) ) ;
#31 = EDGE_CURVE ( 'NONE', #320, #325, #108, .T. ) ;
#32 = DIRECTION ( 'NONE',  ( 0.000000000000000000, 0.000000000000000000, -1.000000000000000000 ) ) ;
#33 = AXIS2_PLACEMENT_3D ( 'NONE', #106, #204, #180 ) ;
#34 = FACE_OUTER_BOUND ( 'NONE', #146, .T. ) ;
#35 = CYLINDRICAL_SURFACE ( 'NONE', #58, 6.349999999999999645 ) ;
#36 = APPROVAL ( #20, 'UNSPECIFIED' ) ;
#37 = DIRECTION ( 'NONE',  ( -1.000000000000000000, 0.000000000000000000, -0.000000000000000000 ) ) ;
#38 = AXIS2_PLACEMENT_3D ( 'NONE', #207, #59, #156 ) ;
#39 = LOCAL_TIME ( 17, 2, 40.00000000000000000, #246 ) ;
#40 = FACE_OUTER_BOUND ( 'NONE', #119, .T. ) ;
#41 = CARTESIAN_POINT ( 'NONE',  ( 3.000000000000000000, 0.000000000000000000, 0.000000000000000000 ) ) ;
#42 = CC_DESIGN_PERSON_AND_ORGANIZATION_ASSIGNMENT ( #250, #304, ( #114 ) ) ;
#43 = AXIS2_PLACEMENT_3D ( 'NONE', #5, #261, #178 ) ;
#44 = ORIENTED_EDGE ( 'NONE', *, *, #280, .F. ) ;
#45 = ORIENTED_EDGE ( 'NONE', *, *, #184, .F. ) ;
#46 = MANIFOLD_SOLID_BREP ( 'Ðý×', #67 ) ;
#47 = CARTESIAN_POINT ( 'NONE',  ( 3.000000000000000888, 0.000000000000000000, 0.000000000000000000 ) ) ;
#48 = EDGE_CURVE ( 'NONE', #316, #273, #173, .T. ) ;
#49 = EDGE_LOOP ( 'NONE', ( #209, #243, #84, #296 ) ) ;
#50 = CARTESIAN_POINT ( 'NONE',  ( -1.614212418857619014, 0.000000000000000000, 6.349999999999999645 ) ) ;
#51 = CIRCLE ( 'NONE', #197, 6.349999999999999645 ) ;
#52 = ORIENTED_EDGE ( 'NONE', *, *, #31, .F. ) ;
#53 = AXIS2_PLACEMENT_3D ( 'NONE', #218, #111, #319 ) ;
#54 = DIRECTION ( 'NONE',  ( -1.000000000000000000, -0.000000000000000000, -0.000000000000000000 ) ) ;
#55 = APPROVAL_DATE_TIME ( #285, #70 ) ;
#56 = CYLINDRICAL_SURFACE ( 'NONE', #38, 6.349999999999999645 ) ;
#57 = CARTESIAN_POINT ( 'NONE',  ( -1.614212418857619014, 0.000000000000000000, 0.000000000000000000 ) ) ;
#58 = AXIS2_PLACEMENT_3D ( 'NONE', #206, #314, #82 ) ;
#59 = DIRECTION ( 'NONE',  ( -1.000000000000000000, -0.000000000000000000, -0.000000000000000000 ) ) ;
#60 = EDGE_CURVE ( 'NONE', #88, #139, #51, .T. ) ;
#61 = FACE_OUTER_BOUND ( 'NONE', #328, .T. ) ;
#62 = CIRCLE ( 'NONE', #331, 6.349999999999999645 ) ;
#63 = DIRECTION ( 'NONE',  ( -1.000000000000000000, -0.000000000000000000, -0.000000000000000000 ) ) ;
#64 = CARTESIAN_POINT ( 'NONE',  ( 3.000000000000000888, 7.776507174585692163E-16, -6.349999999999999645 ) ) ;
#65 = ORIENTED_EDGE ( 'NONE', *, *, #184, .T. ) ;
#66 = EDGE_CURVE ( 'NONE', #88, #320, #113, .T. ) ;
#67 = CLOSED_SHELL ( 'NONE', ( #110, #321, #198, #244, #309, #235, #121, #333, #214, #191 ) ) ;
#68 = ORIENTED_EDGE ( 'NONE', *, *, #128, .T. ) ;
#69 = PERSON_AND_ORGANIZATION ( #15, #305 ) ;
#70 = APPROVAL ( #148, 'UNSPECIFIED' ) ;
#71 = ORIENTED_EDGE ( 'NONE', *, *, #99, .F. ) ;
#72 = DIRECTION ( 'NONE',  ( 0.000000000000000000, 0.000000000000000000, 1.000000000000000000 ) ) ;
#73 = ORIENTED_EDGE ( 'NONE', *, *, #210, .T. ) ;
#74 = AXIS2_PLACEMENT_3D ( 'NONE', #332, #175, #334 ) ;
#75 = CC_DESIGN_PERSON_AND_ORGANIZATION_ASSIGNMENT ( #69, #271, ( #138 ) ) ;
#76 = PERSON_AND_ORGANIZATION ( #15, #305 ) ;
#77 = LINE ( 'NONE', #103, #16 ) ;
#78 = DIRECTION ( 'NONE',  ( -0.000000000000000000, 0.000000000000000000, 1.000000000000000000 ) ) ;
#79 = DIRECTION ( 'NONE',  ( -1.000000000000000000, -0.000000000000000000, -0.000000000000000000 ) ) ;
#80 = VECTOR ( 'NONE', #79, 1000.000000000000000 ) ;
#81 = APPROVAL_PERSON_ORGANIZATION ( #268, #306, #326 ) ;
#82 = DIRECTION ( 'NONE',  ( 0.000000000000000000, 0.000000000000000000, 1.000000000000000000 ) ) ;
#83 = DIRECTION ( 'NONE',  ( -1.000000000000000000, -0.000000000000000000, -0.000000000000000000 ) ) ;
#84 = ORIENTED_EDGE ( 'NONE', *, *, #283, .T. ) ;
#85 = CARTESIAN_POINT ( 'NONE',  ( -1.500000000000000444, 0.000000000000000000, 6.349999999999999645 ) ) ;
#86 = CC_DESIGN_DATE_AND_TIME_ASSIGNMENT ( #126, #227, ( #3 ) ) ;
#87 = DIRECTION ( 'NONE',  ( 0.000000000000000000, 0.000000000000000000, 1.000000000000000000 ) ) ;
#88 = VERTEX_POINT ( 'NONE', #64 ) ;
#89 = ORIENTED_EDGE ( 'NONE', *, *, #259, .T. ) ;
#90 = ORIENTED_EDGE ( 'NONE', *, *, #224, .F. ) ;
#91 = AXIS2_PLACEMENT_3D ( 'NONE', #335, #229, #258 ) ;
#92 = ORIENTED_EDGE ( 'NONE', *, *, #283, .F. ) ;
#93 = SHAPE_DEFINITION_REPRESENTATION ( #137, #129 ) ;
#94 = CARTESIAN_POINT ( 'NONE',  ( -3.000000000000000000, 6.349999999999999645, 0.000000000000000000 ) ) ;
#95 = ORIENTED_EDGE ( 'NONE', *, *, #240, .T. ) ;
#96 = CARTESIAN_POINT ( 'NONE',  ( -3.000000000000000000, 0.000000000000000000, 0.000000000000000000 ) ) ;
#97 = DATE_AND_TIME ( #115, #237 ) ;
#98 = CC_DESIGN_APPROVAL ( #36, ( #114 ) ) ;
#99 = EDGE_CURVE ( 'NONE', #190, #322, #252, .T. ) ;
#100 = PERSON_AND_ORGANIZATION_ROLE ( 'creator' ) ;
#101 = CARTESIAN_POINT ( 'NONE',  ( -1.614212418857619014, 0.000000000000000000, 0.000000000000000000 ) ) ;
#102 = CIRCLE ( 'NONE', #292, 6.349999999999999645 ) ;
#103 = CARTESIAN_POINT ( 'NONE',  ( -1.614212418857619014, 0.000000000000000000, 12.69999999999999929 ) ) ;
#104 =( NAMED_UNIT ( * ) PLANE_ANGLE_UNIT ( ) SI_UNIT ( $, .RADIAN. ) );
#105 = FACE_OUTER_BOUND ( 'NONE', #9, .T. ) ;
#106 = CARTESIAN_POINT ( 'NONE',  ( -1.614212418857619014, 0.000000000000000000, 0.000000000000000000 ) ) ;
#107 = DIRECTION ( 'NONE',  ( 0.000000000000000000, 0.000000000000000000, -1.000000000000000000 ) ) ;
#108 = CIRCLE ( 'NONE', #262, 6.349999999999999645 ) ;
#109 = FACE_BOUND ( 'NONE', #135, .T. ) ;
#110 = ADVANCED_FACE ( 'NONE', ( #40 ), #247, .T. ) ;
#111 = DIRECTION ( 'NONE',  ( -1.000000000000000000, -0.000000000000000000, -0.000000000000000000 ) ) ;
#112 = CC_DESIGN_PERSON_AND_ORGANIZATION_ASSIGNMENT ( #76, #100, ( #3 ) ) ;
#113 = LINE ( 'NONE', #136, #222 ) ;
#114 = PRODUCT_DEFINITION_FORMATION_WITH_SPECIFIED_SOURCE ( 'ANY', '', #295, .NOT_KNOWN. ) ;
#115 = CALENDAR_DATE ( 2020, 22, 12 ) ;
#116 = ORIENTED_EDGE ( 'NONE', *, *, #168, .F. ) ;
#117 = EDGE_LOOP ( 'NONE', ( #239, #276, #23, #216 ) ) ;
#118 = DIRECTION ( 'NONE',  ( -1.000000000000000000, -0.000000000000000000, -0.000000000000000000 ) ) ;
#119 = EDGE_LOOP ( 'NONE', ( #193, #183, #196, #90 ) ) ;
#120 = CARTESIAN_POINT ( 'NONE',  ( -1.500000000000000444, 7.776507174585692163E-16, -6.349999999999999645 ) ) ;
#121 = ADVANCED_FACE ( 'NONE', ( #264, #188 ), #236, .F. ) ;
#122 = CIRCLE ( 'NONE', #160, 12.69999999999999929 ) ;
#123 = MECHANICAL_CONTEXT ( 'NONE', #312, 'mechanical' ) ;
#124 = APPLICATION_PROTOCOL_DEFINITION ( 'international standard', 'config_control_design', 1994, #312 ) ;
#125 = CARTESIAN_POINT ( 'NONE',  ( -2.999999999999999556, 0.000000000000000000, 0.000000000000000000 ) ) ;
#126 = DATE_AND_TIME ( #255, #257 ) ;
#127 = DIRECTION ( 'NONE',  ( 0.000000000000000000, 0.000000000000000000, 1.000000000000000000 ) ) ;
#128 = EDGE_CURVE ( 'NONE', #273, #316, #122, .T. ) ;
#129 = ADVANCED_BREP_SHAPE_REPRESENTATION ( 'Q-ZDWWP-R42-12.7-1064-SHM', ( #46, #74 ), #277 ) ;
#130 = FACE_OUTER_BOUND ( 'NONE', #141, .T. ) ;
#131 = CARTESIAN_POINT ( 'NONE',  ( -3.000000000000000000, 1.555301434917138433E-15, -12.69999999999999929 ) ) ;
#132 = DIRECTION ( 'NONE',  ( -1.000000000000000000, -0.000000000000000000, -0.000000000000000000 ) ) ;
#133 = VECTOR ( 'NONE', #132, 1000.000000000000000 ) ;
#134 = AXIS2_PLACEMENT_3D ( 'NONE', #94, #161, #13 ) ;
#135 = EDGE_LOOP ( 'NONE', ( #65, #267 ) ) ;
#136 = CARTESIAN_POINT ( 'NONE',  ( -1.614212418857619014, 7.776507174585692163E-16, -6.349999999999999645 ) ) ;
#137 = PRODUCT_DEFINITION_SHAPE ( 'NONE', 'NONE',  #3 ) ;
#138 = SECURITY_CLASSIFICATION ( '', '', #144 ) ;
#139 = VERTEX_POINT ( 'NONE', #221 ) ;
#140 = APPROVAL_DATE_TIME ( #278, #306 ) ;
#141 = EDGE_LOOP ( 'NONE', ( #163, #45, #303, #95 ) ) ;
#142 = DIRECTION ( 'NONE',  ( 0.000000000000000000, 0.000000000000000000, 1.000000000000000000 ) ) ;
#143 = EDGE_LOOP ( 'NONE', ( #212, #89, #171, #73 ) ) ;
#144 = SECURITY_CLASSIFICATION_LEVEL ( 'unclassified' ) ;
#145 = DIRECTION ( 'NONE',  ( -1.000000000000000000, -0.000000000000000000, -0.000000000000000000 ) ) ;
#146 = EDGE_LOOP ( 'NONE', ( #300, #298, #248, #189 ) ) ;
#147 = PERSON_AND_ORGANIZATION ( #15, #305 ) ;
#148 = APPROVAL_STATUS ( 'not_yet_approved' ) ;
#149 = AXIS2_PLACEMENT_3D ( 'NONE', #182, #37, #226 ) ;
#150 = CC_DESIGN_SECURITY_CLASSIFICATION ( #138, ( #114 ) ) ;
#151 = PERSON_AND_ORGANIZATION_ROLE ( 'design_owner' ) ;
#152 = APPLICATION_PROTOCOL_DEFINITION ( 'international standard', 'config_control_design', 1994, #10 ) ;
#153 = DIRECTION ( 'NONE',  ( -1.000000000000000000, -0.000000000000000000, -0.000000000000000000 ) ) ;
#154 = CC_DESIGN_PERSON_AND_ORGANIZATION_ASSIGNMENT ( #147, #18, ( #114 ) ) ;
#155 = APPROVAL_PERSON_ORGANIZATION ( #1, #36, #164 ) ;
#156 = DIRECTION ( 'NONE',  ( 0.000000000000000000, 0.000000000000000000, 1.000000000000000000 ) ) ;
#157 = CARTESIAN_POINT ( 'NONE',  ( 1.500000000000000888, 7.776507174585692163E-16, -6.349999999999999645 ) ) ;
#158 = FACE_OUTER_BOUND ( 'NONE', #143, .T. ) ;
#159 = DIRECTION ( 'NONE',  ( -1.000000000000000000, -0.000000000000000000, -0.000000000000000000 ) ) ;
#160 = AXIS2_PLACEMENT_3D ( 'NONE', #242, #118, #211 ) ;
#161 = DIRECTION ( 'NONE',  ( 1.000000000000000000, 0.000000000000000000, 0.000000000000000000 ) ) ;
#162 = CARTESIAN_POINT ( 'NONE',  ( -2.999999999999999556, 0.000000000000000000, 6.349999999999999645 ) ) ;
#163 = ORIENTED_EDGE ( 'NONE', *, *, #66, .F. ) ;
#164 = APPROVAL_ROLE ( '' ) ;
#165 = CC_DESIGN_APPROVAL ( #70, ( #3 ) ) ;
#166 = VERTEX_POINT ( 'NONE', #120 ) ;
#167 = DESIGN_CONTEXT ( 'detailed design', #10, 'design' ) ;
#168 = EDGE_CURVE ( 'NONE', #322, #190, #232, .T. ) ;
#169 = VERTEX_POINT ( 'NONE', #294 ) ;
#170 = DIRECTION ( 'NONE',  ( 0.000000000000000000, 0.000000000000000000, 1.000000000000000000 ) ) ;
#171 = ORIENTED_EDGE ( 'NONE', *, *, #265, .T. ) ;
#172 = COORDINATED_UNIVERSAL_TIME_OFFSET ( 8, 0, .AHEAD. ) ;
#173 = CIRCLE ( 'NONE', #266, 12.69999999999999929 ) ;
#174 = EDGE_CURVE ( 'NONE', #166, #169, #208, .T. ) ;
#175 = DIRECTION ( 'NONE',  ( 0.000000000000000000, 0.000000000000000000, 1.000000000000000000 ) ) ;
#176 = CYLINDRICAL_SURFACE ( 'NONE', #324, 6.349999999999999645 ) ;
#177 = CARTESIAN_POINT ( 'NONE',  ( 1.500000000000000888, 0.000000000000000000, 6.349999999999999645 ) ) ;
#178 = DIRECTION ( 'NONE',  ( 0.000000000000000000, 0.000000000000000000, 1.000000000000000000 ) ) ;
#179 = CIRCLE ( 'NONE', #43, 6.349999999999999645 ) ;
#180 = DIRECTION ( 'NONE',  ( 0.000000000000000000, 0.000000000000000000, 1.000000000000000000 ) ) ;
#181 = PLANE ( 'NONE',  #282 ) ;
#182 = CARTESIAN_POINT ( 'NONE',  ( 1.500000000000000444, 6.349999999999999645, 0.000000000000000000 ) ) ;
#183 = ORIENTED_EDGE ( 'NONE', *, *, #302, .T. ) ;
#184 = EDGE_CURVE ( 'NONE', #139, #88, #217, .T. ) ;
#185 = DIRECTION ( 'NONE',  ( -1.000000000000000000, -0.000000000000000000, -0.000000000000000000 ) ) ;
#186 = AXIS2_PLACEMENT_3D ( 'NONE', #291, #153, #4 ) ;
#187 = EDGE_CURVE ( 'NONE', #139, #325, #275, .T. ) ;
#188 = FACE_OUTER_BOUND ( 'NONE', #215, .T. ) ;
#189 = ORIENTED_EDGE ( 'NONE', *, *, #187, .F. ) ;
#190 = VERTEX_POINT ( 'NONE', #24 ) ;
#191 = ADVANCED_FACE ( 'NONE', ( #61 ), #181, .F. ) ;
#192 = VECTOR ( 'NONE', #195, 1000.000000000000000 ) ;
#193 = ORIENTED_EDGE ( 'NONE', *, *, #99, .T. ) ;
#194 = APPROVAL_STATUS ( 'not_yet_approved' ) ;
#195 = DIRECTION ( 'NONE',  ( -1.000000000000000000, -0.000000000000000000, -0.000000000000000000 ) ) ;
#196 = ORIENTED_EDGE ( 'NONE', *, *, #48, .F. ) ;
#197 = AXIS2_PLACEMENT_3D ( 'NONE', #47, #293, #142 ) ;
#198 = ADVANCED_FACE ( 'NONE', ( #34 ), #56, .F. ) ;
#199 = CALENDAR_DATE ( 2020, 22, 12 ) ;
#200 = LOCAL_TIME ( 17, 2, 40.00000000000000000, #223 ) ;
#201 = FACE_OUTER_BOUND ( 'NONE', #14, .T. ) ;
#202 =( NAMED_UNIT ( * ) SI_UNIT ( $, .STERADIAN. ) SOLID_ANGLE_UNIT ( ) );
#203 = CARTESIAN_POINT ( 'NONE',  ( 3.000000000000000000, 12.69999999999999929, 0.000000000000000000 ) ) ;
#204 = DIRECTION ( 'NONE',  ( -1.000000000000000000, -0.000000000000000000, -0.000000000000000000 ) ) ;
#205 = LOCAL_TIME ( 17, 2, 40.00000000000000000, #172 ) ;
#206 = CARTESIAN_POINT ( 'NONE',  ( -1.614212418857619014, 0.000000000000000000, 0.000000000000000000 ) ) ;
#207 = CARTESIAN_POINT ( 'NONE',  ( -1.614212418857619014, 0.000000000000000000, 0.000000000000000000 ) ) ;
#208 = LINE ( 'NONE', #327, #192 ) ;
#209 = ORIENTED_EDGE ( 'NONE', *, *, #280, .T. ) ;
#210 = EDGE_CURVE ( 'NONE', #17, #169, #62, .T. ) ;
#211 = DIRECTION ( 'NONE',  ( 0.000000000000000000, 0.000000000000000000, 1.000000000000000000 ) ) ;
#212 = ORIENTED_EDGE ( 'NONE', *, *, #174, .F. ) ;
#213 = DATE_TIME_ROLE ( 'classification_date' ) ;
#214 = ADVANCED_FACE ( 'NONE', ( #105, #109 ), #256, .F. ) ;
#215 = EDGE_LOOP ( 'NONE', ( #241, #68 ) ) ;
#216 = ORIENTED_EDGE ( 'NONE', *, *, #128, .F. ) ;
#217 = CIRCLE ( 'NONE', #297, 6.349999999999999645 ) ;
#218 = CARTESIAN_POINT ( 'NONE',  ( 3.000000000000000000, 0.000000000000000000, 0.000000000000000000 ) ) ;
#219 = ORIENTED_EDGE ( 'NONE', *, *, #259, .F. ) ;
#220 = DATE_AND_TIME ( #323, #205 ) ;
#221 = CARTESIAN_POINT ( 'NONE',  ( 3.000000000000000888, 0.000000000000000000, 6.349999999999999645 ) ) ;
#222 = VECTOR ( 'NONE', #159, 1000.000000000000000 ) ;
#223 = COORDINATED_UNIVERSAL_TIME_OFFSET ( 8, 0, .AHEAD. ) ;
#224 = EDGE_CURVE ( 'NONE', #190, #316, #77, .T. ) ;
#225 = APPROVAL_ROLE ( '' ) ;
#226 = DIRECTION ( 'NONE',  ( -0.000000000000000000, 0.000000000000000000, 1.000000000000000000 ) ) ;
#227 = DATE_TIME_ROLE ( 'creation_date' ) ;
#228 = VECTOR ( 'NONE', #145, 1000.000000000000000 ) ;
#229 = DIRECTION ( 'NONE',  ( 1.000000000000000000, 0.000000000000000000, 0.000000000000000000 ) ) ;
#230 = CYLINDRICAL_SURFACE ( 'NONE', #33, 6.349999999999999645 ) ;
#231 = DIRECTION ( 'NONE',  ( -1.000000000000000000, 0.000000000000000000, -0.000000000000000000 ) ) ;
#232 = CIRCLE ( 'NONE', #53, 12.69999999999999929 ) ;
#233 = CARTESIAN_POINT ( 'NONE',  ( -1.500000000000000444, 6.349999999999999645, 0.000000000000000000 ) ) ;
#234 = DIRECTION ( 'NONE',  ( -1.000000000000000000, -0.000000000000000000, -0.000000000000000000 ) ) ;
#235 = ADVANCED_FACE ( 'NONE', ( #158 ), #176, .F. ) ;
#236 = PLANE ( 'NONE',  #134 ) ;
#237 = LOCAL_TIME ( 17, 2, 40.00000000000000000, #274 ) ;
#238 = UNCERTAINTY_MEASURE_WITH_UNIT (LENGTH_MEASURE( 1.000000000000000082E-05 ), #279, 'distance_accuracy_value', 'NONE');
#239 = ORIENTED_EDGE ( 'NONE', *, *, #302, .F. ) ;
#240 = EDGE_CURVE ( 'NONE', #325, #320, #179, .T. ) ;
#241 = ORIENTED_EDGE ( 'NONE', *, *, #48, .T. ) ;
#242 = CARTESIAN_POINT ( 'NONE',  ( -3.000000000000000000, 0.000000000000000000, 0.000000000000000000 ) ) ;
#243 = ORIENTED_EDGE ( 'NONE', *, *, #174, .T. ) ;
#244 = ADVANCED_FACE ( 'NONE', ( #201 ), #315, .F. ) ;
#245 = AXIS2_PLACEMENT_3D ( 'NONE', #203, #231, #78 ) ;
#246 = COORDINATED_UNIVERSAL_TIME_OFFSET ( 8, 0, .AHEAD. ) ;
#247 = CYLINDRICAL_SURFACE ( 'NONE', #7, 12.69999999999999929 ) ;
#248 = ORIENTED_EDGE ( 'NONE', *, *, #31, .T. ) ;
#249 = PRODUCT_RELATED_PRODUCT_CATEGORY ( 'detail', '', ( #295 ) ) ;
#250 = PERSON_AND_ORGANIZATION ( #15, #305 ) ;
#251 = DIRECTION ( 'NONE',  ( 0.000000000000000000, 0.000000000000000000, 1.000000000000000000 ) ) ;
#252 = CIRCLE ( 'NONE', #27, 12.69999999999999929 ) ;
#253 = COORDINATED_UNIVERSAL_TIME_OFFSET ( 8, 0, .AHEAD. ) ;
#254 = DIRECTION ( 'NONE',  ( -1.000000000000000000, -0.000000000000000000, -0.000000000000000000 ) ) ;
#255 = CALENDAR_DATE ( 2020, 22, 12 ) ;
#256 = PLANE ( 'NONE',  #245 ) ;
#257 = LOCAL_TIME ( 17, 2, 40.00000000000000000, #253 ) ;
#258 = DIRECTION ( 'NONE',  ( 0.000000000000000000, 0.000000000000000000, -1.000000000000000000 ) ) ;
#259 = EDGE_CURVE ( 'NONE', #166, #19, #318, .T. ) ;
#260 = FACE_OUTER_BOUND ( 'NONE', #49, .T. ) ;
#261 = DIRECTION ( 'NONE',  ( -1.000000000000000000, -0.000000000000000000, -0.000000000000000000 ) ) ;
#262 = AXIS2_PLACEMENT_3D ( 'NONE', #272, #330, #87 ) ;
#263 = DIRECTION ( 'NONE',  ( 0.000000000000000000, 0.000000000000000000, 1.000000000000000000 ) ) ;
#264 = FACE_BOUND ( 'NONE', #12, .T. ) ;
#265 = EDGE_CURVE ( 'NONE', #19, #17, #308, .T. ) ;
#266 = AXIS2_PLACEMENT_3D ( 'NONE', #96, #185, #72 ) ;
#267 = ORIENTED_EDGE ( 'NONE', *, *, #60, .T. ) ;
#268 = PERSON_AND_ORGANIZATION ( #15, #305 ) ;
#269 = CC_DESIGN_DATE_AND_TIME_ASSIGNMENT ( #220, #213, ( #138 ) ) ;
#270 = ORIENTED_EDGE ( 'NONE', *, *, #210, .F. ) ;
#271 = PERSON_AND_ORGANIZATION_ROLE ( 'classification_officer' ) ;
#272 = CARTESIAN_POINT ( 'NONE',  ( 1.500000000000000888, 0.000000000000000000, 0.000000000000000000 ) ) ;
#273 = VERTEX_POINT ( 'NONE', #131 ) ;
#274 = COORDINATED_UNIVERSAL_TIME_OFFSET ( 8, 0, .AHEAD. ) ;
#275 = LINE ( 'NONE', #50, #228 ) ;
#276 = ORIENTED_EDGE ( 'NONE', *, *, #168, .T. ) ;
#277 =( GEOMETRIC_REPRESENTATION_CONTEXT ( 3 ) GLOBAL_UNCERTAINTY_ASSIGNED_CONTEXT ( ( #238 ) ) GLOBAL_UNIT_ASSIGNED_CONTEXT ( ( #279, #104, #202 ) ) REPRESENTATION_CONTEXT ( 'NONE', 'WORKASPACE' ) );
#278 = DATE_AND_TIME ( #329, #39 ) ;
#279 =( LENGTH_UNIT ( ) NAMED_UNIT ( * ) SI_UNIT ( .MILLI., .METRE. ) );
#280 = EDGE_CURVE ( 'NONE', #19, #166, #102, .T. ) ;
#281 = PERSON_AND_ORGANIZATION ( #15, #305 ) ;
#282 = AXIS2_PLACEMENT_3D ( 'NONE', #233, #290, #32 ) ;
#283 = EDGE_CURVE ( 'NONE', #169, #17, #2, .T. ) ;
#284 = CC_DESIGN_APPROVAL ( #306, ( #138 ) ) ;
#285 = DATE_AND_TIME ( #199, #200 ) ;
#286 = CARTESIAN_POINT ( 'NONE',  ( -1.500000000000000444, 0.000000000000000000, 0.000000000000000000 ) ) ;
#287 = CARTESIAN_POINT ( 'NONE',  ( -1.614212418857619014, 1.555301434917138433E-15, -12.69999999999999929 ) ) ;
#288 = CC_DESIGN_PERSON_AND_ORGANIZATION_ASSIGNMENT ( #307, #151, ( #295 ) ) ;
#289 = CARTESIAN_POINT ( 'NONE',  ( -3.000000000000000000, 0.000000000000000000, 12.69999999999999929 ) ) ;
#290 = DIRECTION ( 'NONE',  ( 1.000000000000000000, 0.000000000000000000, 0.000000000000000000 ) ) ;
#291 = CARTESIAN_POINT ( 'NONE',  ( -2.999999999999999556, 0.000000000000000000, 0.000000000000000000 ) ) ;
#292 = AXIS2_PLACEMENT_3D ( 'NONE', #286, #311, #107 ) ;
#293 = DIRECTION ( 'NONE',  ( -1.000000000000000000, -0.000000000000000000, -0.000000000000000000 ) ) ;
#294 = CARTESIAN_POINT ( 'NONE',  ( -2.999999999999999556, 7.776507174585692163E-16, -6.349999999999999645 ) ) ;
#295 = PRODUCT ( 'Q-ZDWWP-R42-12.7-1064-SHM', 'Q-ZDWWP-R42-12.7-1064-SHM', '', ( #123 ) ) ;
#296 = ORIENTED_EDGE ( 'NONE', *, *, #265, .F. ) ;
#297 = AXIS2_PLACEMENT_3D ( 'NONE', #317, #301, #170 ) ;
#298 = ORIENTED_EDGE ( 'NONE', *, *, #66, .T. ) ;
#299 = APPROVAL_DATE_TIME ( #97, #36 ) ;
#300 = ORIENTED_EDGE ( 'NONE', *, *, #60, .F. ) ;
#301 = DIRECTION ( 'NONE',  ( -1.000000000000000000, -0.000000000000000000, -0.000000000000000000 ) ) ;
#302 = EDGE_CURVE ( 'NONE', #322, #273, #310, .T. ) ;
#303 = ORIENTED_EDGE ( 'NONE', *, *, #187, .T. ) ;
#304 = PERSON_AND_ORGANIZATION_ROLE ( 'design_supplier' ) ;
#305 = ORGANIZATION ( 'UNSPECIFIED', 'UNSPECIFIED', '' ) ;
#306 = APPROVAL ( #194, 'UNSPECIFIED' ) ;
#307 = PERSON_AND_ORGANIZATION ( #15, #305 ) ;
#308 = LINE ( 'NONE', #8, #133 ) ;
#309 = ADVANCED_FACE ( 'NONE', ( #130 ), #230, .F. ) ;
#310 = LINE ( 'NONE', #287, #80 ) ;
#311 = DIRECTION ( 'NONE',  ( 1.000000000000000000, 0.000000000000000000, 0.000000000000000000 ) ) ;
#312 = APPLICATION_CONTEXT ( 'configuration controlled 3d designs of mechanical parts and assemblies' ) ;
#313 = AXIS2_PLACEMENT_3D ( 'NONE', #101, #54, #251 ) ;
#314 = DIRECTION ( 'NONE',  ( -1.000000000000000000, -0.000000000000000000, -0.000000000000000000 ) ) ;
#315 = PLANE ( 'NONE',  #149 ) ;
#316 = VERTEX_POINT ( 'NONE', #289 ) ;
#317 = CARTESIAN_POINT ( 'NONE',  ( 3.000000000000000888, 0.000000000000000000, 0.000000000000000000 ) ) ;
#318 = CIRCLE ( 'NONE', #91, 6.349999999999999645 ) ;
#319 = DIRECTION ( 'NONE',  ( 0.000000000000000000, 0.000000000000000000, 1.000000000000000000 ) ) ;
#320 = VERTEX_POINT ( 'NONE', #157 ) ;
#321 = ADVANCED_FACE ( 'NONE', ( #260 ), #35, .F. ) ;
#322 = VERTEX_POINT ( 'NONE', #26 ) ;
#323 = CALENDAR_DATE ( 2020, 22, 12 ) ;
#324 = AXIS2_PLACEMENT_3D ( 'NONE', #57, #6, #30 ) ;
#325 = VERTEX_POINT ( 'NONE', #177 ) ;
#326 = APPROVAL_ROLE ( '' ) ;
#327 = CARTESIAN_POINT ( 'NONE',  ( -1.614212418857619014, 7.776507174585692163E-16, -6.349999999999999645 ) ) ;
#328 = EDGE_LOOP ( 'NONE', ( #44, #219 ) ) ;
#329 = CALENDAR_DATE ( 2020, 22, 12 ) ;
#330 = DIRECTION ( 'NONE',  ( -1.000000000000000000, -0.000000000000000000, -0.000000000000000000 ) ) ;
#331 = AXIS2_PLACEMENT_3D ( 'NONE', #125, #254, #127 ) ;
#332 = CARTESIAN_POINT ( 'NONE',  ( 0.000000000000000000, 0.000000000000000000, 0.000000000000000000 ) ) ;
#333 = ADVANCED_FACE ( 'NONE', ( #28 ), #29, .T. ) ;
#334 = DIRECTION ( 'NONE',  ( 1.000000000000000000, 0.000000000000000000, 0.000000000000000000 ) ) ;
#335 = CARTESIAN_POINT ( 'NONE',  ( -1.500000000000000444, 0.000000000000000000, 0.000000000000000000 ) ) ;
ENDSEC;
END-ISO-10303-21;
